You are not logged in. Please register or login.

dr_love6977
 Rep: 38 

Re: Shackler's Revenge Tabs

dr_love6977 wrote:

Rather than clogging up the Shackler thread with tabs as I update them, I'm starting a dedicated thread. After fooling around with it for a little bit I figured out that the song is in Drop C (D A F C G C). I'm not saying this is completely accurate, but it sounds pretty damn close.


Intro:


:----18-------18---|------------------------|-----------------------|
:----22-------22---|------------------------|-----------------------|
:-------------------|-------------------------|-----------------------|
:0-0------0-0------|------------------------|-----------------------|
:0-0------0-0------|------------------------|-----------------------|
:0-0------0-0------|8-8-7-7-7-7-5-5--*--|8-8-7-7-7-7-5-5--*--|


Verse:

    PM----------------|            PM----------------|
:----------------------------|-----------------------------|
:----------------------------|-----------------------------|
:----------------------------|-----------------------------|
:1-1-1-1-1-1-1-1-1-1-1---|0-0-0-0-0-0-0-0-0-0-0---|
:1-1-1-1-1-1-1-1-1-1-1---|0-0-0-0-0-0-0-0-0-0-0---|
:1-1-1-1-1-1-1-1-1-1-1---|0-0-0-0-0-0-0-0-0-0-0---| 


    PM----------------|            PM----------------|
:-----------------------------|------------------------18--|
:-----------------------------|------------------------22--|
:-----------------------------|-----------------------------|
:1-1-1-1-1-1-1-1-1-1-1----|0-0-0-0-0-0-0-0-0-0------|
:1-1-1-1-1-1-1-1-1-1-1----|0-0-0-0-0-0-0-0-0-0------|
:1-1-1-1-1-1-1-1-1-1-1----|0-0-0-0-0-0-0-0-0-0------|


Pre-Chorus:


:---------------5--|-----------7-/-9-\7-5--|
:---------------6--|-----------8-/10-\8-6--|
:6-6-6-6-6-6-----|6-6-6-6----------------|
:6-6-6-6-6-6-----|6-6-6-6----------------|
:4-4-4-4-4-4-----|4-4-4-4----------------|
:------------------|-------------------------|


Chorus:


|-------------------|-------------------|-------------------|-------------------|
|-------------------|-------------------|-------------------|-------------------|
|8-8-8-8-8-8-8-8-|-------------------|-------------------|6-6-6-6-6-6-6-6-|
|8-8-8-8-8-8-8-8-|9-9-9-9-9-9-9-9-|4-4-4-4-4-4-4-4-|6-6-6-6-6-6-6-6-|
|6-6-6-6-6-6-6-6-|9-9-9-9-9-9-9-9-|4-4-4-4-4-4-4-4-|4-4-4-4-4-4-4-4-|
|-------------------|9-9-9-9-9-9-9-9-|4-4-4-4-4-4-4-4-|-------------------|

Axl S
 Rep: 96 

Re: Shackler's Revenge Tabs

Axl S wrote:

I LOVE YOU!

dr_love6977
 Rep: 38 

Re: Shackler's Revenge Tabs

dr_love6977 wrote:
Axl S wrote:

I LOVE YOU!

Aw shucks......

Saikin
 Rep: 109 

Re: Shackler's Revenge Tabs

Saikin wrote:

So quick? 16

I'm sure the guitarists at this forum will love you for this. 

You've got 12 songs to go.  16

Axl S
 Rep: 96 

Re: Shackler's Revenge Tabs

Axl S wrote:
dr_love6977 wrote:
Axl S wrote:

I LOVE YOU!

Aw shucks......

I shall spend weeks attempting this tongue I

RussTCB
 Rep: 633 

Re: Shackler's Revenge Tabs

RussTCB wrote:

removed

Axl S
 Rep: 96 

Re: Shackler's Revenge Tabs

Axl S wrote:
russtcb wrote:

EVERYONE STOP LOVING ON MY GUITAR PLAYER! 16 5

BUT HE DESERVES LOVE. I now await Rhiad tab tongue

dr_love6977
 Rep: 38 

Re: Shackler's Revenge Tabs

dr_love6977 wrote:

Jealous......

RussTCB
 Rep: 633 

Re: Shackler's Revenge Tabs

RussTCB wrote:

removed

dr_love6977
 Rep: 38 

Re: Shackler's Revenge Tabs

dr_love6977 wrote:

It happens...

Board footer

Powered by FluxBB